ISO-10303-21;
HEADER;
FILE_DESCRIPTION (( 'STEP AP203' ),
    '1' );
FILE_NAME ('am-4669 1.5x1.5x0.0625 wall tubing.STEP',
    '2025-02-26T19:50:58',
    ( '' ),
    ( '' ),
    'SwSTEP 2.0',
    'SolidWorks 2024',
    '' );
FILE_SCHEMA (( 'CONFIG_CONTROL_DESIGN' ));
ENDSEC;

DATA;
#1 = PERSON_AND_ORGANIZATION_ROLE ( 'creator' ) ;
#2 = DIRECTION ( 'NONE',  ( -0.000000000000000000, -1.000000000000000000, -0.000000000000000000 ) ) ;
#3 = EDGE_CURVE ( 'NONE', #140, #99, #22, .T. ) ;
#4 = CARTESIAN_POINT ( 'NONE',  ( 0.7500000000000002220, 72.00000000000000000, -0.7500000000000002220 ) ) ;
#5 = AXIS2_PLACEMENT_3D ( 'NONE', #323, #179, #34 ) ;
#6 = LINE ( 'NONE', #146, #224 ) ;
#7 = ORIENTED_EDGE ( 'NONE', *, *, #237, .T. ) ;
#8 = PLANE ( 'NONE',  #5 ) ;
#9 = EDGE_CURVE ( 'NONE', #99, #322, #256, .T. ) ;
#10 = ORIENTED_EDGE ( 'NONE', *, *, #9, .T. ) ;
#11 = LINE ( 'NONE', #328, #316 ) ;
#12 = APPLICATION_PROTOCOL_DEFINITION ( 'international standard', 'config_control_design', 1994, #50 ) ;
#13 = VECTOR ( 'NONE', #345, 39.37007874015748143 ) ;
#14 = VERTEX_POINT ( 'NONE', #163 ) ;
#15 =( NAMED_UNIT ( * ) PLANE_ANGLE_UNIT ( ) SI_UNIT ( $, .RADIAN. ) );
#16 = ORIENTED_EDGE ( 'NONE', *, *, #3, .T. ) ;
#17 = CARTESIAN_POINT ( 'NONE',  ( 0.000000000000000000, 72.00000000000000000, 0.000000000000000000 ) ) ;
#18 = DESIGN_CONTEXT ( 'detailed design', #207, 'design' ) ;
#19 = DIRECTION ( 'NONE',  ( -1.000000000000000000, 0.000000000000000000, -0.000000000000000000 ) ) ;
#20 = DIRECTION ( 'NONE',  ( 0.000000000000000000, 1.000000000000000000, 0.000000000000000000 ) ) ;
#21 = LOCAL_TIME ( 14, 50, 58.00000000000000000, #165 ) ;
#22 = LINE ( 'NONE', #49, #190 ) ;
#23 = PERSON_AND_ORGANIZATION ( #315, #59 ) ;
#24 = DIRECTION ( 'NONE',  ( -1.000000000000000000, 0.000000000000000000, 0.000000000000000000 ) ) ;
#25 = PERSON_AND_ORGANIZATION_ROLE ( 'creator' ) ;
#26 = ORIENTED_EDGE ( 'NONE', *, *, #100, .F. ) ;
#27 = VECTOR ( 'NONE', #208, 39.37007874015748143 ) ;
#28 = DIRECTION ( 'NONE',  ( 1.821231995776175479E-16, -0.000000000000000000, 1.000000000000000000 ) ) ;
#29 = LOCAL_TIME ( 14, 50, 58.00000000000000000, #167 ) ;
#30 = PERSON_AND_ORGANIZATION ( #315, #59 ) ;
#31 = AXIS2_PLACEMENT_3D ( 'NONE', #228, #124, #330 ) ;
#32 = LINE ( 'NONE', #238, #175 ) ;
#33 = EDGE_CURVE ( 'NONE', #85, #76, #306, .T. ) ;
#34 = DIRECTION ( 'NONE',  ( 0.000000000000000000, 0.000000000000000000, -1.000000000000000000 ) ) ;
#35 = PLANE ( 'NONE',  #338 ) ;
#36 = EDGE_CURVE ( 'NONE', #76, #98, #136, .T. ) ;
#37 = LINE ( 'NONE', #176, #157 ) ;
#38 = ORIENTED_EDGE ( 'NONE', *, *, #342, .T. ) ;
#39 = CARTESIAN_POINT ( 'NONE',  ( 0.6875000000000001110, 72.00000000000000000, 0.6875000000000000000 ) ) ;
#40 = VERTEX_POINT ( 'NONE', #368 ) ;
#41 = ORIENTED_EDGE ( 'NONE', *, *, #154, .T. ) ;
#42 = FACE_OUTER_BOUND ( 'NONE', #73, .T. ) ;
#43 = EDGE_CURVE ( 'NONE', #356, #101, #343, .T. ) ;
#44 = PRODUCT ( 'am-4669 1.5x1.5x0.0625 wall tubing', 'am-4669 1.5x1.5x0.0625 wall tubing', '', ( #132 ) ) ;
#45 = DIRECTION ( 'NONE',  ( 0.000000000000000000, 0.000000000000000000, 1.000000000000000000 ) ) ;
#46 = ORIENTED_EDGE ( 'NONE', *, *, #144, .T. ) ;
#47 = MANIFOLD_SOLID_BREP ( 'Boss-Extrude1', #249 ) ;
#48 = DIRECTION ( 'NONE',  ( 0.000000000000000000, 0.000000000000000000, -1.000000000000000000 ) ) ;
#49 = CARTESIAN_POINT ( 'NONE',  ( 0.6875000000000001110, 0.000000000000000000, 0.6875000000000000000 ) ) ;
#50 = APPLICATION_CONTEXT ( 'configuration controlled 3d designs of mechanical parts and assemblies' ) ;
#51 = CALENDAR_DATE ( 2025, 26, 2 ) ;
#52 = CC_DESIGN_PERSON_AND_ORGANIZATION_ASSIGNMENT ( #307, #372, ( #44 ) ) ;
#53 = CC_DESIGN_SECURITY_CLASSIFICATION ( #365, ( #68 ) ) ;
#54 = DIRECTION ( 'NONE',  ( -0.000000000000000000, -0.000000000000000000, 1.000000000000000000 ) ) ;
#55 = PERSON_AND_ORGANIZATION ( #315, #59 ) ;
#56 = CARTESIAN_POINT ( 'NONE',  ( 0.6875000000000001110, 72.00000000000000000, 0.6875000000000000000 ) ) ;
#57 = ORIENTED_EDGE ( 'NONE', *, *, #318, .T. ) ;
#58 = APPROVAL_STATUS ( 'not_yet_approved' ) ;
#59 = ORGANIZATION ( 'UNSPECIFIED', 'UNSPECIFIED', '' ) ;
#60 = PLANE ( 'NONE',  #62 ) ;
#61 = EDGE_CURVE ( 'NONE', #169, #356, #253, .T. ) ;
#62 = AXIS2_PLACEMENT_3D ( 'NONE', #74, #247, #130 ) ;
#63 = DIRECTION ( 'NONE',  ( -0.000000000000000000, -1.000000000000000000, -0.000000000000000000 ) ) ;
#64 = LINE ( 'NONE', #87, #91 ) ;
#65 = ORIENTED_EDGE ( 'NONE', *, *, #100, .T. ) ;
#66 = LINE ( 'NONE', #121, #127 ) ;
#67 = EDGE_LOOP ( 'NONE', ( #184, #327, #71, #213 ) ) ;
#68 = PRODUCT_DEFINITION_FORMATION_WITH_SPECIFIED_SOURCE ( 'ANY', '', #44, .NOT_KNOWN. ) ;
#69 = DIRECTION ( 'NONE',  ( -1.000000000000000000, 0.000000000000000000, 9.106159978880877395E-17 ) ) ;
#70 = ORIENTED_EDGE ( 'NONE', *, *, #43, .F. ) ;
#71 = ORIENTED_EDGE ( 'NONE', *, *, #297, .T. ) ;
#72 = DIRECTION ( 'NONE',  ( 1.000000000000000000, -0.000000000000000000, -0.000000000000000000 ) ) ;
#73 = EDGE_LOOP ( 'NONE', ( #291, #156, #170, #189 ) ) ;
#74 = CARTESIAN_POINT ( 'NONE',  ( 0.000000000000000000, 0.000000000000000000, 0.000000000000000000 ) ) ;
#75 = CC_DESIGN_APPROVAL ( #159, ( #246 ) ) ;
#76 = VERTEX_POINT ( 'NONE', #106 ) ;
#77 = PLANE ( 'NONE',  #134 ) ;
#78 = ORIENTED_EDGE ( 'NONE', *, *, #33, .T. ) ;
#79 = ADVANCED_FACE ( 'NONE', ( #229 ), #311, .F. ) ;
#80 = PLANE ( 'NONE',  #332 ) ;
#81 = VERTEX_POINT ( 'NONE', #363 ) ;
#82 = VECTOR ( 'NONE', #54, 39.37007874015748143 ) ;
#83 = ORIENTED_EDGE ( 'NONE', *, *, #182, .F. ) ;
#84 = PERSON_AND_ORGANIZATION ( #315, #59 ) ;
#85 = VERTEX_POINT ( 'NONE', #339 ) ;
#86 = DATE_AND_TIME ( #195, #300 ) ;
#87 = CARTESIAN_POINT ( 'NONE',  ( 0.6875000000000001110, 72.00000000000000000, 0.6875000000000000000 ) ) ;
#88 = PERSON_AND_ORGANIZATION ( #315, #59 ) ;
#89 = VECTOR ( 'NONE', #231, 39.37007874015748143 ) ;
#90 = UNCERTAINTY_MEASURE_WITH_UNIT (LENGTH_MEASURE( 1.000000000000000082E-05 ), #326, 'distance_accuracy_value', 'NONE');
#91 = VECTOR ( 'NONE', #354, 39.37007874015748143 ) ;
#92 = CC_DESIGN_APPROVAL ( #118, ( #365 ) ) ;
#93 = LINE ( 'NONE', #119, #13 ) ;
#94 = PLANE ( 'NONE',  #120 ) ;
#95 = CARTESIAN_POINT ( 'NONE',  ( -0.7499999999999998890, 0.000000000000000000, 0.7500000000000001110 ) ) ;
#96 = ORIENTED_EDGE ( 'NONE', *, *, #318, .F. ) ;
#97 = DIRECTION ( 'NONE',  ( 1.000000000000000000, 0.000000000000000000, -0.000000000000000000 ) ) ;
#98 = VERTEX_POINT ( 'NONE', #192 ) ;
#99 = VERTEX_POINT ( 'NONE', #337 ) ;
#100 = EDGE_CURVE ( 'NONE', #356, #81, #108, .T. ) ;
#101 = VERTEX_POINT ( 'NONE', #308 ) ;
#102 = FACE_OUTER_BOUND ( 'NONE', #67, .T. ) ;
#103 = ADVANCED_FACE ( 'NONE', ( #102 ), #225, .T. ) ;
#104 = EDGE_LOOP ( 'NONE', ( #186, #242, #26, #221 ) ) ;
#105 = PLANE ( 'NONE',  #31 ) ;
#106 = CARTESIAN_POINT ( 'NONE',  ( -0.6875000000000000000, 72.00000000000000000, -0.6875000000000001110 ) ) ;
#107 = SECURITY_CLASSIFICATION_LEVEL ( 'unclassified' ) ;
#108 = LINE ( 'NONE', #366, #82 ) ;
#109 = CALENDAR_DATE ( 2025, 26, 2 ) ;
#110 = VECTOR ( 'NONE', #265, 39.37007874015748143 ) ;
#111 = EDGE_LOOP ( 'NONE', ( #41, #273, #329, #216 ) ) ;
#112 = CALENDAR_DATE ( 2025, 26, 2 ) ;
#113 = EDGE_CURVE ( 'NONE', #76, #322, #66, .T. ) ;
#114 = PLANE ( 'NONE',  #197 ) ;
#115 = DATE_AND_TIME ( #109, #21 ) ;
#116 = CC_DESIGN_PERSON_AND_ORGANIZATION_ASSIGNMENT ( #30, #25, ( #68 ) ) ;
#117 = CARTESIAN_POINT ( 'NONE',  ( 0.6875000000000001110, 72.00000000000000000, -0.6875000000000001110 ) ) ;
#118 = APPROVAL ( #305, 'UNSPECIFIED' ) ;
#119 = CARTESIAN_POINT ( 'NONE',  ( -0.6875000000000000000, 0.000000000000000000, 0.6875000000000000000 ) ) ;
#120 = AXIS2_PLACEMENT_3D ( 'NONE', #211, #319, #69 ) ;
#121 = CARTESIAN_POINT ( 'NONE',  ( -0.6875000000000000000, 72.00000000000000000, -0.6875000000000001110 ) ) ;
#122 = EDGE_LOOP ( 'NONE', ( #65, #232, #304, #282 ) ) ;
#123 = LINE ( 'NONE', #262, #148 ) ;
#124 = DIRECTION ( 'NONE',  ( 1.000000000000000000, -0.000000000000000000, 0.000000000000000000 ) ) ;
#125 = ORIENTED_EDGE ( 'NONE', *, *, #144, .F. ) ;
#126 = ADVANCED_FACE ( 'NONE', ( #289 ), #35, .F. ) ;
#127 = VECTOR ( 'NONE', #63, 39.37007874015748143 ) ;
#128 = LOCAL_TIME ( 14, 50, 58.00000000000000000, #341 ) ;
#129 = LINE ( 'NONE', #187, #158 ) ;
#130 = DIRECTION ( 'NONE',  ( 0.000000000000000000, -0.000000000000000000, 1.000000000000000000 ) ) ;
#131 = ORIENTED_EDGE ( 'NONE', *, *, #154, .F. ) ;
#132 = MECHANICAL_CONTEXT ( 'NONE', #50, 'mechanical' ) ;
#133 = VERTEX_POINT ( 'NONE', #243 ) ;
#134 = AXIS2_PLACEMENT_3D ( 'NONE', #17, #20, #367 ) ;
#135 = CARTESIAN_POINT ( 'NONE',  ( -0.6875000000000000000, 0.000000000000000000, 0.6875000000000000000 ) ) ;
#136 = LINE ( 'NONE', #227, #164 ) ;
#137 = PERSON_AND_ORGANIZATION ( #315, #59 ) ;
#138 = CARTESIAN_POINT ( 'NONE',  ( -0.7499999999999998890, 72.00000000000000000, -0.7499999999999998890 ) ) ;
#139 = PERSON_AND_ORGANIZATION_ROLE ( 'design_supplier' ) ;
#140 = VERTEX_POINT ( 'NONE', #177 ) ;
#141 = CC_DESIGN_DATE_AND_TIME_ASSIGNMENT ( #86, #172, ( #365 ) ) ;
#142 = APPLICATION_PROTOCOL_DEFINITION ( 'international standard', 'config_control_design', 1994, #207 ) ;
#143 = LINE ( 'NONE', #349, #359 ) ;
#144 = EDGE_CURVE ( 'NONE', #302, #85, #32, .T. ) ;
#145 = DIRECTION ( 'NONE',  ( 1.000000000000000000, 0.000000000000000000, -1.821231995776175479E-16 ) ) ;
#146 = CARTESIAN_POINT ( 'NONE',  ( 0.7500000000000002220, 72.00000000000000000, -0.7500000000000002220 ) ) ;
#147 = LINE ( 'NONE', #151, #269 ) ;
#148 = VECTOR ( 'NONE', #2, 39.37007874015748143 ) ;
#149 = EDGE_LOOP ( 'NONE', ( #57, #70, #281, #298 ) ) ;
#150 = CC_DESIGN_APPROVAL ( #252, ( #68 ) ) ;
#151 = CARTESIAN_POINT ( 'NONE',  ( 0.7500000000000002220, 72.00000000000000000, 0.7499999999999998890 ) ) ;
#152 = ORIENTED_EDGE ( 'NONE', *, *, #277, .T. ) ;
#153 = DIRECTION ( 'NONE',  ( -1.000000000000000000, 0.000000000000000000, 0.000000000000000000 ) ) ;
#154 = EDGE_CURVE ( 'NONE', #40, #133, #317, .T. ) ;
#155 = ORIENTED_EDGE ( 'NONE', *, *, #230, .F. ) ;
#156 = ORIENTED_EDGE ( 'NONE', *, *, #113, .F. ) ;
#157 = VECTOR ( 'NONE', #321, 39.37007874015748143 ) ;
#158 = VECTOR ( 'NONE', #48, 39.37007874015748143 ) ;
#159 = APPROVAL ( #58, 'UNSPECIFIED' ) ;
#160 = DIRECTION ( 'NONE',  ( 1.000000000000000000, 0.000000000000000000, 0.000000000000000000 ) ) ;
#161 = DIRECTION ( 'NONE',  ( 0.000000000000000000, 0.000000000000000000, -1.000000000000000000 ) ) ;
#162 = CARTESIAN_POINT ( 'NONE',  ( -0.6875000000000000000, 0.000000000000000000, -0.6875000000000001110 ) ) ;
#163 = CARTESIAN_POINT ( 'NONE',  ( 0.7500000000000002220, 72.00000000000000000, 0.7499999999999998890 ) ) ;
#164 = VECTOR ( 'NONE', #283, 39.37007874015748143 ) ;
#165 = COORDINATED_UNIVERSAL_TIME_OFFSET ( 5, 0, .BEHIND. ) ;
#166 = EDGE_LOOP ( 'NONE', ( #181, #270, #78, #275 ) ) ;
#167 = COORDINATED_UNIVERSAL_TIME_OFFSET ( 5, 0, .BEHIND. ) ;
#168 = EDGE_CURVE ( 'NONE', #98, #324, #37, .T. ) ;
#169 = VERTEX_POINT ( 'NONE', #4 ) ;
#170 = ORIENTED_EDGE ( 'NONE', *, *, #36, .T. ) ;
#171 = VECTOR ( 'NONE', #24, 39.37007874015748143 ) ;
#172 = DATE_TIME_ROLE ( 'classification_date' ) ;
#173 = EDGE_CURVE ( 'NONE', #81, #14, #147, .T. ) ;
#174 = LINE ( 'NONE', #263, #110 ) ;
#175 = VECTOR ( 'NONE', #203, 39.37007874015748143 ) ;
#176 = CARTESIAN_POINT ( 'NONE',  ( -0.6875000000000000000, 72.00000000000000000, 0.6875000000000000000 ) ) ;
#177 = CARTESIAN_POINT ( 'NONE',  ( 0.6875000000000001110, 0.000000000000000000, 0.6875000000000000000 ) ) ;
#178 = ORIENTED_EDGE ( 'NONE', *, *, #3, .F. ) ;
#179 = DIRECTION ( 'NONE',  ( 1.000000000000000000, -0.000000000000000000, 0.000000000000000000 ) ) ;
#180 = APPROVAL_PERSON_ORGANIZATION ( #200, #159, #235 ) ;
#181 = ORIENTED_EDGE ( 'NONE', *, *, #9, .F. ) ;
#182 = EDGE_CURVE ( 'NONE', #302, #140, #174, .T. ) ;
#183 = CARTESIAN_POINT ( 'NONE',  ( 0.6875000000000001110, 72.00000000000000000, 0.6875000000000000000 ) ) ;
#184 = ORIENTED_EDGE ( 'NONE', *, *, #342, .F. ) ;
#185 =( NAMED_UNIT ( * ) SI_UNIT ( $, .STERADIAN. ) SOLID_ANGLE_UNIT ( ) );
#186 = ORIENTED_EDGE ( 'NONE', *, *, #230, .T. ) ;
#187 = CARTESIAN_POINT ( 'NONE',  ( 0.7500000000000002220, 72.00000000000000000, 0.7499999999999998890 ) ) ;
#188 = CC_DESIGN_PERSON_AND_ORGANIZATION_ASSIGNMENT ( #84, #1, ( #246 ) ) ;
#189 = ORIENTED_EDGE ( 'NONE', *, *, #168, .T. ) ;
#190 = VECTOR ( 'NONE', #248, 39.37007874015748143 ) ;
#191 = VECTOR ( 'NONE', #261, 39.37007874015748143 ) ;
#192 = CARTESIAN_POINT ( 'NONE',  ( -0.6875000000000000000, 72.00000000000000000, 0.6875000000000000000 ) ) ;
#193 = DIRECTION ( 'NONE',  ( -1.000000000000000000, 0.000000000000000000, 1.821231995776175725E-16 ) ) ;
#194 = ORIENTED_EDGE ( 'NONE', *, *, #36, .F. ) ;
#195 = CALENDAR_DATE ( 2025, 26, 2 ) ;
#196 = DIRECTION ( 'NONE',  ( -1.000000000000000000, 0.000000000000000000, 0.000000000000000000 ) ) ;
#197 = AXIS2_PLACEMENT_3D ( 'NONE', #117, #355, #97 ) ;
#198 = ADVANCED_FACE ( 'NONE', ( #234 ), #8, .F. ) ;
#199 = VERTEX_POINT ( 'NONE', #287 ) ;
#200 = PERSON_AND_ORGANIZATION ( #315, #59 ) ;
#201 = DIRECTION ( 'NONE',  ( -1.000000000000000000, 0.000000000000000000, 1.821231995776175725E-16 ) ) ;
#202 = DATE_AND_TIME ( #112, #128 ) ;
#203 = DIRECTION ( 'NONE',  ( 0.000000000000000000, 0.000000000000000000, -1.000000000000000000 ) ) ;
#204 = CC_DESIGN_PERSON_AND_ORGANIZATION_ASSIGNMENT ( #137, #139, ( #68 ) ) ;
#205 = APPROVAL_DATE_TIME ( #233, #118 ) ;
#206 = LOCAL_TIME ( 14, 50, 58.00000000000000000, #346 ) ;
#207 = APPLICATION_CONTEXT ( 'configuration controlled 3d designs of mechanical parts and assemblies' ) ;
#208 = DIRECTION ( 'NONE',  ( 1.000000000000000000, -0.000000000000000000, -9.106159978880878627E-17 ) ) ;
#209 = CC_DESIGN_DATE_AND_TIME_ASSIGNMENT ( #115, #259, ( #246 ) ) ;
#210 = VECTOR ( 'NONE', #335, 39.37007874015748143 ) ;
#211 = CARTESIAN_POINT ( 'NONE',  ( 0.7500000000000002220, 72.00000000000000000, 0.7499999999999998890 ) ) ;
#212 = FACE_OUTER_BOUND ( 'NONE', #360, .T. ) ;
#213 = ORIENTED_EDGE ( 'NONE', *, *, #182, .T. ) ;
#214 = EDGE_CURVE ( 'NONE', #169, #199, #6, .T. ) ;
#215 = CARTESIAN_POINT ( 'NONE',  ( 0.7500000000000002220, 0.000000000000000000, 0.7499999999999998890 ) ) ;
#216 = ORIENTED_EDGE ( 'NONE', *, *, #257, .T. ) ;
#217 = LENGTH_MEASURE_WITH_UNIT ( LENGTH_MEASURE( 0.02539999999999999897 ), #358 );
#218 = ADVANCED_BREP_SHAPE_REPRESENTATION ( 'am-4669 1.5x1.5x0.0625 wall tubing', ( #47, #374 ), #364 ) ;
#219 = ORIENTED_EDGE ( 'NONE', *, *, #314, .F. ) ;
#220 = CARTESIAN_POINT ( 'NONE',  ( 0.6875000000000001110, 72.00000000000000000, -0.6875000000000001110 ) ) ;
#221 = ORIENTED_EDGE ( 'NONE', *, *, #43, .T. ) ;
#222 = LINE ( 'NONE', #334, #240 ) ;
#223 = CC_DESIGN_PERSON_AND_ORGANIZATION_ASSIGNMENT ( #88, #348, ( #365 ) ) ;
#224 = VECTOR ( 'NONE', #292, 39.37007874015748143 ) ;
#225 = PLANE ( 'NONE',  #286 ) ;
#226 = DIRECTION ( 'NONE',  ( -0.000000000000000000, -1.000000000000000000, -0.000000000000000000 ) ) ;
#227 = CARTESIAN_POINT ( 'NONE',  ( -0.6875000000000000000, 72.00000000000000000, 0.6875000000000000000 ) ) ;
#228 = CARTESIAN_POINT ( 'NONE',  ( -0.6875000000000000000, 72.00000000000000000, 0.6875000000000000000 ) ) ;
#229 = FACE_OUTER_BOUND ( 'NONE', #294, .T. ) ;
#230 = EDGE_CURVE ( 'NONE', #101, #40, #241, .T. ) ;
#231 = DIRECTION ( 'NONE',  ( -1.000000000000000000, 0.000000000000000000, 0.000000000000000000 ) ) ;
#232 = ORIENTED_EDGE ( 'NONE', *, *, #173, .T. ) ;
#233 = DATE_AND_TIME ( #285, #206 ) ;
#234 = FACE_OUTER_BOUND ( 'NONE', #104, .T. ) ;
#235 = APPROVAL_ROLE ( '' ) ;
#236 = APPROVAL_STATUS ( 'not_yet_approved' ) ;
#237 = EDGE_CURVE ( 'NONE', #14, #133, #123, .T. ) ;
#238 = CARTESIAN_POINT ( 'NONE',  ( 0.6875000000000001110, 72.00000000000000000, 0.6875000000000000000 ) ) ;
#239 = FACE_OUTER_BOUND ( 'NONE', #111, .T. ) ;
#240 = VECTOR ( 'NONE', #274, 39.37007874015748143 ) ;
#241 = LINE ( 'NONE', #95, #191 ) ;
#242 = ORIENTED_EDGE ( 'NONE', *, *, #257, .F. ) ;
#243 = CARTESIAN_POINT ( 'NONE',  ( 0.7500000000000002220, 0.000000000000000000, 0.7499999999999998890 ) ) ;
#244 = CARTESIAN_POINT ( 'NONE',  ( 0.6875000000000001110, 0.000000000000000000, 0.6875000000000000000 ) ) ;
#245 = AXIS2_PLACEMENT_3D ( 'NONE', #370, #196, #250 ) ;
#246 = PRODUCT_DEFINITION ( 'UNKNOWN', '', #68, #18 ) ;
#247 = DIRECTION ( 'NONE',  ( 0.000000000000000000, 1.000000000000000000, 0.000000000000000000 ) ) ;
#248 = DIRECTION ( 'NONE',  ( 0.000000000000000000, 0.000000000000000000, -1.000000000000000000 ) ) ;
#249 = CLOSED_SHELL ( 'NONE', ( #347, #310, #198, #284, #79, #126, #331, #103, #371, #271 ) ) ;
#250 = DIRECTION ( 'NONE',  ( 0.000000000000000000, 0.000000000000000000, 1.000000000000000000 ) ) ;
#251 = FACE_BOUND ( 'NONE', #299, .T. ) ;
#252 = APPROVAL ( #236, 'UNSPECIFIED' ) ;
#253 = LINE ( 'NONE', #254, #260 ) ;
#254 = CARTESIAN_POINT ( 'NONE',  ( 0.7500000000000002220, 72.00000000000000000, -0.7500000000000002220 ) ) ;
#255 = APPROVAL_ROLE ( '' ) ;
#256 = LINE ( 'NONE', #373, #89 ) ;
#257 = EDGE_CURVE ( 'NONE', #81, #40, #143, .T. ) ;
#258 = DIRECTION ( 'NONE',  ( -0.000000000000000000, -1.000000000000000000, -0.000000000000000000 ) ) ;
#259 = DATE_TIME_ROLE ( 'creation_date' ) ;
#260 = VECTOR ( 'NONE', #201, 39.37007874015748143 ) ;
#261 = DIRECTION ( 'NONE',  ( -0.000000000000000000, -0.000000000000000000, 1.000000000000000000 ) ) ;
#262 = CARTESIAN_POINT ( 'NONE',  ( 0.7500000000000002220, 72.00000000000000000, 0.7499999999999998890 ) ) ;
#263 = CARTESIAN_POINT ( 'NONE',  ( 0.6875000000000001110, 72.00000000000000000, 0.6875000000000000000 ) ) ;
#264 = ORIENTED_EDGE ( 'NONE', *, *, #33, .F. ) ;
#265 = DIRECTION ( 'NONE',  ( -0.000000000000000000, -1.000000000000000000, -0.000000000000000000 ) ) ;
#266 = ORIENTED_EDGE ( 'NONE', *, *, #325, .F. ) ;
#267 = DIRECTION ( 'NONE',  ( 0.000000000000000000, 0.000000000000000000, 1.000000000000000000 ) ) ;
#268 = ORIENTED_EDGE ( 'NONE', *, *, #214, .F. ) ;
#269 = VECTOR ( 'NONE', #288, 39.37007874015748143 ) ;
#270 = ORIENTED_EDGE ( 'NONE', *, *, #352, .F. ) ;
#271 = ADVANCED_FACE ( 'NONE', ( #376 ), #114, .T. ) ;
#272 = CARTESIAN_POINT ( 'NONE',  ( -0.7499999999999998890, 72.00000000000000000, -0.7499999999999998890 ) ) ;
#273 = ORIENTED_EDGE ( 'NONE', *, *, #237, .F. ) ;
#274 = DIRECTION ( 'NONE',  ( 0.000000000000000000, 0.000000000000000000, -1.000000000000000000 ) ) ;
#275 = ORIENTED_EDGE ( 'NONE', *, *, #113, .T. ) ;
#276 = FACE_OUTER_BOUND ( 'NONE', #122, .T. ) ;
#277 = EDGE_CURVE ( 'NONE', #322, #324, #93, .T. ) ;
#278 = CARTESIAN_POINT ( 'NONE',  ( 0.6875000000000001110, 72.00000000000000000, -0.6875000000000001110 ) ) ;
#279 = APPROVAL_PERSON_ORGANIZATION ( #23, #252, #375 ) ;
#280 = DATE_AND_TIME ( #51, #29 ) ;
#281 = ORIENTED_EDGE ( 'NONE', *, *, #61, .F. ) ;
#282 = ORIENTED_EDGE ( 'NONE', *, *, #61, .T. ) ;
#283 = DIRECTION ( 'NONE',  ( -0.000000000000000000, -0.000000000000000000, 1.000000000000000000 ) ) ;
#284 = ADVANCED_FACE ( 'NONE', ( #239 ), #94, .F. ) ;
#285 = CALENDAR_DATE ( 2025, 26, 2 ) ;
#286 = AXIS2_PLACEMENT_3D ( 'NONE', #56, #161, #19 ) ;
#287 = CARTESIAN_POINT ( 'NONE',  ( 0.7500000000000002220, 0.000000000000000000, -0.7500000000000002220 ) ) ;
#288 = DIRECTION ( 'NONE',  ( 1.000000000000000000, -0.000000000000000000, -9.106159978880878627E-17 ) ) ;
#289 = FACE_OUTER_BOUND ( 'NONE', #149, .T. ) ;
#290 = DIMENSIONAL_EXPONENTS ( 1.000000000000000000, 0.000000000000000000, 0.000000000000000000, 0.000000000000000000, 0.000000000000000000, 0.000000000000000000, 0.000000000000000000 ) ;
#291 = ORIENTED_EDGE ( 'NONE', *, *, #277, .F. ) ;
#292 = DIRECTION ( 'NONE',  ( -0.000000000000000000, -1.000000000000000000, -0.000000000000000000 ) ) ;
#293 = VECTOR ( 'NONE', #72, 39.37007874015748143 ) ;
#294 = EDGE_LOOP ( 'NONE', ( #320, #268, #266, #7 ) ) ;
#295 = FACE_OUTER_BOUND ( 'NONE', #333, .T. ) ;
#296 = ORIENTED_EDGE ( 'NONE', *, *, #297, .F. ) ;
#297 = EDGE_CURVE ( 'NONE', #98, #302, #64, .T. ) ;
#298 = ORIENTED_EDGE ( 'NONE', *, *, #214, .T. ) ;
#299 = EDGE_LOOP ( 'NONE', ( #296, #194, #264, #125 ) ) ;
#300 = LOCAL_TIME ( 14, 50, 58.00000000000000000, #309 ) ;
#301 = CARTESIAN_POINT ( 'NONE',  ( 0.000000000000000000, 0.000000000000000000, 0.000000000000000000 ) ) ;
#302 = VERTEX_POINT ( 'NONE', #183 ) ;
#303 = LINE ( 'NONE', #244, #293 ) ;
#304 = ORIENTED_EDGE ( 'NONE', *, *, #325, .T. ) ;
#305 = APPROVAL_STATUS ( 'not_yet_approved' ) ;
#306 = LINE ( 'NONE', #278, #171 ) ;
#307 = PERSON_AND_ORGANIZATION ( #315, #59 ) ;
#308 = CARTESIAN_POINT ( 'NONE',  ( -0.7499999999999998890, 0.000000000000000000, -0.7499999999999998890 ) ) ;
#309 = COORDINATED_UNIVERSAL_TIME_OFFSET ( 5, 0, .BEHIND. ) ;
#310 = ADVANCED_FACE ( 'NONE', ( #212, #312 ), #60, .F. ) ;
#311 = PLANE ( 'NONE',  #245 ) ;
#312 = FACE_BOUND ( 'NONE', #353, .T. ) ;
#313 = SHAPE_DEFINITION_REPRESENTATION ( #361, #218 ) ;
#314 = EDGE_CURVE ( 'NONE', #133, #199, #222, .T. ) ;
#315 = PERSON ( 'UNSPECIFIED', 'UNSPECIFIED', 'UNSPECIFIED', ('UNSPECIFIED'), ('UNSPECIFIED'), ('UNSPECIFIED') ) ;
#316 = VECTOR ( 'NONE', #193, 39.37007874015748143 ) ;
#317 = LINE ( 'NONE', #215, #27 ) ;
#318 = EDGE_CURVE ( 'NONE', #199, #101, #11, .T. ) ;
#319 = DIRECTION ( 'NONE',  ( -9.106159978880877395E-17, 0.000000000000000000, -1.000000000000000000 ) ) ;
#320 = ORIENTED_EDGE ( 'NONE', *, *, #314, .T. ) ;
#321 = DIRECTION ( 'NONE',  ( -0.000000000000000000, -1.000000000000000000, -0.000000000000000000 ) ) ;
#322 = VERTEX_POINT ( 'NONE', #162 ) ;
#323 = CARTESIAN_POINT ( 'NONE',  ( -0.7499999999999998890, 72.00000000000000000, 0.7500000000000001110 ) ) ;
#324 = VERTEX_POINT ( 'NONE', #135 ) ;
#325 = EDGE_CURVE ( 'NONE', #14, #169, #129, .T. ) ;
#326 =( CONVERSION_BASED_UNIT ( 'INCH', #217 ) LENGTH_UNIT ( ) NAMED_UNIT ( #290 ) );
#327 = ORIENTED_EDGE ( 'NONE', *, *, #168, .F. ) ;
#328 = CARTESIAN_POINT ( 'NONE',  ( 0.7500000000000002220, 0.000000000000000000, -0.7500000000000002220 ) ) ;
#329 = ORIENTED_EDGE ( 'NONE', *, *, #173, .F. ) ;
#330 = DIRECTION ( 'NONE',  ( 0.000000000000000000, 0.000000000000000000, -1.000000000000000000 ) ) ;
#331 = ADVANCED_FACE ( 'NONE', ( #42 ), #105, .T. ) ;
#332 = AXIS2_PLACEMENT_3D ( 'NONE', #39, #153, #267 ) ;
#333 = EDGE_LOOP ( 'NONE', ( #178, #83, #46, #362 ) ) ;
#334 = CARTESIAN_POINT ( 'NONE',  ( 0.7500000000000002220, 0.000000000000000000, 0.7499999999999998890 ) ) ;
#335 = DIRECTION ( 'NONE',  ( -0.000000000000000000, -1.000000000000000000, -0.000000000000000000 ) ) ;
#336 = LINE ( 'NONE', #220, #350 ) ;
#337 = CARTESIAN_POINT ( 'NONE',  ( 0.6875000000000001110, 0.000000000000000000, -0.6875000000000001110 ) ) ;
#338 = AXIS2_PLACEMENT_3D ( 'NONE', #351, #28, #145 ) ;
#339 = CARTESIAN_POINT ( 'NONE',  ( 0.6875000000000001110, 72.00000000000000000, -0.6875000000000001110 ) ) ;
#340 = APPROVAL_PERSON_ORGANIZATION ( #55, #118, #255 ) ;
#341 = COORDINATED_UNIVERSAL_TIME_OFFSET ( 5, 0, .BEHIND. ) ;
#342 = EDGE_CURVE ( 'NONE', #324, #140, #303, .T. ) ;
#343 = LINE ( 'NONE', #138, #210 ) ;
#344 = APPROVAL_DATE_TIME ( #202, #252 ) ;
#345 = DIRECTION ( 'NONE',  ( -0.000000000000000000, -0.000000000000000000, 1.000000000000000000 ) ) ;
#346 = COORDINATED_UNIVERSAL_TIME_OFFSET ( 5, 0, .BEHIND. ) ;
#347 = ADVANCED_FACE ( 'NONE', ( #276, #251 ), #77, .T. ) ;
#348 = PERSON_AND_ORGANIZATION_ROLE ( 'classification_officer' ) ;
#349 = CARTESIAN_POINT ( 'NONE',  ( -0.7499999999999998890, 72.00000000000000000, 0.7500000000000001110 ) ) ;
#350 = VECTOR ( 'NONE', #226, 39.37007874015748143 ) ;
#351 = CARTESIAN_POINT ( 'NONE',  ( 0.7500000000000002220, 72.00000000000000000, -0.7500000000000002220 ) ) ;
#352 = EDGE_CURVE ( 'NONE', #85, #99, #336, .T. ) ;
#353 = EDGE_LOOP ( 'NONE', ( #152, #38, #16, #10 ) ) ;
#354 = DIRECTION ( 'NONE',  ( 1.000000000000000000, -0.000000000000000000, -0.000000000000000000 ) ) ;
#355 = DIRECTION ( 'NONE',  ( 0.000000000000000000, -0.000000000000000000, 1.000000000000000000 ) ) ;
#356 = VERTEX_POINT ( 'NONE', #272 ) ;
#357 = PRODUCT_RELATED_PRODUCT_CATEGORY ( 'detail', '', ( #44 ) ) ;
#358 =( LENGTH_UNIT ( ) NAMED_UNIT ( * ) SI_UNIT ( $, .METRE. ) );
#359 = VECTOR ( 'NONE', #258, 39.37007874015748143 ) ;
#360 = EDGE_LOOP ( 'NONE', ( #155, #96, #219, #131 ) ) ;
#361 = PRODUCT_DEFINITION_SHAPE ( 'NONE', 'NONE',  #246 ) ;
#362 = ORIENTED_EDGE ( 'NONE', *, *, #352, .T. ) ;
#363 = CARTESIAN_POINT ( 'NONE',  ( -0.7499999999999998890, 72.00000000000000000, 0.7500000000000001110 ) ) ;
#364 =( GEOMETRIC_REPRESENTATION_CONTEXT ( 3 ) GLOBAL_UNCERTAINTY_ASSIGNED_CONTEXT ( ( #90 ) ) GLOBAL_UNIT_ASSIGNED_CONTEXT ( ( #326, #15, #185 ) ) REPRESENTATION_CONTEXT ( 'NONE', 'WORKASPACE' ) );
#365 = SECURITY_CLASSIFICATION ( '', '', #107 ) ;
#366 = CARTESIAN_POINT ( 'NONE',  ( -0.7499999999999998890, 72.00000000000000000, 0.7500000000000001110 ) ) ;
#367 = DIRECTION ( 'NONE',  ( 0.000000000000000000, -0.000000000000000000, 1.000000000000000000 ) ) ;
#368 = CARTESIAN_POINT ( 'NONE',  ( -0.7499999999999998890, 0.000000000000000000, 0.7500000000000001110 ) ) ;
#369 = APPROVAL_DATE_TIME ( #280, #159 ) ;
#370 = CARTESIAN_POINT ( 'NONE',  ( 0.7500000000000002220, 72.00000000000000000, 0.7499999999999998890 ) ) ;
#371 = ADVANCED_FACE ( 'NONE', ( #295 ), #80, .T. ) ;
#372 = PERSON_AND_ORGANIZATION_ROLE ( 'design_owner' ) ;
#373 = CARTESIAN_POINT ( 'NONE',  ( 0.6875000000000001110, 0.000000000000000000, -0.6875000000000001110 ) ) ;
#374 = AXIS2_PLACEMENT_3D ( 'NONE', #301, #45, #160 ) ;
#375 = APPROVAL_ROLE ( '' ) ;
#376 = FACE_OUTER_BOUND ( 'NONE', #166, .T. ) ;
ENDSEC;
END-ISO-10303-21;
